  0
SECTION
  2
HEADER
  9
$ACADVER
  1
AC1015
  9
$ACADMAINTVER
 70
     6
  9
$DWGCODEPAGE
  3
ANSI_1254
  9
$INSBASE
 10
0.0
 20
0.0
 30
0.0
  9
$EXTMIN
 10
0.0
 20
0.0
 30
0.0
  9
$EXTMAX
 10
279.4
 20
215.9
 30
0.0
  9
$LIMMIN
 10
0.0
 20
0.0
  9
$LIMMAX
 10
279.4
 20
215.9
  9
$ORTHOMODE
 70
     0
  9
$REGENMODE
 70
     1
  9
$FILLMODE
 70
     1
  9
$QTEXTMODE
 70
     0
  9
$MIRRTEXT
 70
     1
  9
$LTSCALE
 40
1.0
  9
$ATTMODE
 70
     1
  9
$TEXTSIZE
 40
3.5
  9
$TRACEWID
 40
1.0
  9
$TEXTSTYLE
  7
Standard
  9
$CLAYER
  8
0
  9
$CELTYPE
  6
ByLayer
  9
$CECOLOR
 62
   256
  9
$CELTSCALE
 40
1.0
  9
$DISPSILH
 70
     0
  9
$DIMSCALE
 40
1.0
  9
$DIMASZ
 40
3.5
  9
$DIMEXO
 40
1.0
  9
$DIMDLI
 40
3.75
  9
$DIMRND
 40
0.0
  9
$DIMDLE
 40
0.0
  9
$DIMEXE
 40
1.0
  9
$DIMTP
 40
0.0
  9
$DIMTM
 40
0.0
  9
$DIMTXT
 40
3.5
  9
$DIMCEN
 40
2.5
  9
$DIMTSZ
 40
0.0
  9
$DIMTOL
 70
     0
  9
$DIMLIM
 70
     0
  9
$DIMTIH
 70
     1
  9
$DIMTOH
 70
     1
  9
$DIMSE1
 70
     0
  9
$DIMSE2
 70
     0
  9
$DIMTAD
 70
     1
  9
$DIMZIN
 70
     0
  9
$DIMBLK
  1

  9
$DIMASO
 70
     1
  9
$DIMSHO
 70
     1
  9
$DIMPOST
  1

  9
$DIMAPOST
  1

  9
$DIMALT
 70
     0
  9
$DIMALTD
 70
     3
  9
$DIMALTF
 40
0.0393700787
  9
$DIMLFAC
 40
1.0
  9
$DIMTOFL
 70
     1
  9
$DIMTVP
 40
0.0
  9
$DIMTIX
 70
     0
  9
$DIMSOXD
 70
     0
  9
$DIMSAH
 70
     0
  9
$DIMBLK1
  1

  9
$DIMBLK2
  1

  9
$DIMSTYLE
  2
ISO-25
  9
$DIMCLRD
 70
     0
  9
$DIMCLRE
 70
     0
  9
$DIMCLRT
 70
     0
  9
$DIMTFAC
 40
1.0
  9
$DIMGAP
 40
1.524
  9
$DIMJUST
 70
     0
  9
$DIMSD1
 70
     0
  9
$DIMSD2
 70
     0
  9
$DIMTOLJ
 70
     0
  9
$DIMTZIN
 70
     0
  9
$DIMALTZ
 70
     0
  9
$DIMALTTZ
 70
     0
  9
$DIMUPT
 70
     0
  9
$DIMDEC
 70
     2
  9
$DIMTDEC
 70
     2
  9
$DIMALTU
 70
     2
  9
$DIMALTTD
 70
     3
  9
$DIMTXSTY
  7
Standard
  9
$DIMAUNIT
 70
     0
  9
$DIMADEC
 70
     2
  9
$DIMALTRND
 40
0.0
  9
$DIMAZIN
 70
     0
  9
$DIMDSEP
 70
    44
  9
$DIMATFIT
 70
     3
  9
$DIMFRAC
 70
     0
  9
$DIMLDRBLK
  1

  9
$DIMLUNIT
 70
     2
  9
$DIMLWD
 70
    -2
  9
$DIMLWE
 70
    -2
  9
$DIMTMOVE
 70
     0
  9
$LUNITS
 70
     2
  9
$LUPREC
 70
     2
  9
$SKETCHINC
 40
1.0
  9
$FILLETRAD
 40
10.0
  9
$AUNITS
 70
     0
  9
$AUPREC
 70
     2
  9
$MENU
  1
.
  9
$ELEVATION
 40
0.0
  9
$PELEVATION
 40
0.0
  9
$THICKNESS
 40
0.0
  9
$LIMCHECK
 70
     0
  9
$CHAMFERA
 40
0.0
  9
$CHAMFERB
 40
0.0
  9
$CHAMFERC
 40
0.0
  9
$CHAMFERD
 40
0.0
  9
$SKPOLY
 70
     0
  9
$TDCREATE
 40
2458985.636267616
  9
$TDUCREATE
 40
2458985.511267616
  9
$TDUPDATE
 40
2458985.636267975
  9
$TDUUPDATE
 40
2458985.511267975
  9
$TDINDWG
 40
0.0000000116
  9
$TDUSRTIMER
 40
0.0000000116
  9
$USRTIMER
 70
     1
  9
$ANGBASE
 50
0.0
  9
$ANGDIR
 70
     0
  9
$PDMODE
 70
     0
  9
$PDSIZE
 40
-1.0
  9
$PLINEWID
 40
0.0
  9
$SPLFRAME
 70
     0
  9
$SPLINETYPE
 70
     6
  9
$SPLINESEGS
 70
     8
  9
$HANDSEED
  5
CC
  9
$SURFTAB1
 70
     6
  9
$SURFTAB2
 70
     6
  9
$SURFTYPE
 70
     6
  9
$SURFU
 70
     6
  9
$SURFV
 70
     6
  9
$UCSBASE
  2

  9
$UCSNAME
  2

  9
$UCSORG
 10
0.0
 20
0.0
 30
0.0
  9
$UCSXDIR
 10
1.0
 20
0.0
 30
0.0
  9
$UCSYDIR
 10
0.0
 20
1.0
 30
0.0
  9
$UCSORTHOREF
  2

  9
$UCSORTHOVIEW
 70
     0
  9
$UCSORGTOP
 10
0.0
 20
0.0
 30
0.0
  9
$UCSORGBOTTOM
 10
0.0
 20
0.0
 30
0.0
  9
$UCSORGLEFT
 10
0.0
 20
0.0
 30
0.0
  9
$UCSORGRIGHT
 10
0.0
 20
0.0
 30
0.0
  9
$UCSORGFRONT
 10
0.0
 20
0.0
 30
0.0
  9
$UCSORGBACK
 10
0.0
 20
0.0
 30
0.0
  9
$PUCSBASE
  2

  9
$PUCSNAME
  2

  9
$PUCSORG
 10
0.0
 20
0.0
 30
0.0
  9
$PUCSXDIR
 10
1.0
 20
0.0
 30
0.0
  9
$PUCSYDIR
 10
0.0
 20
1.0
 30
0.0
  9
$PUCSORTHOREF
  2

  9
$PUCSORTHOVIEW
 70
     0
  9
$PUCSORGTOP
 10
0.0
 20
0.0
 30
0.0
  9
$PUCSORGBOTTOM
 10
0.0
 20
0.0
 30
0.0
  9
$PUCSORGLEFT
 10
0.0
 20
0.0
 30
0.0
  9
$PUCSORGRIGHT
 10
0.0
 20
0.0
 30
0.0
  9
$PUCSORGFRONT
 10
0.0
 20
0.0
 30
0.0
  9
$PUCSORGBACK
 10
0.0
 20
0.0
 30
0.0
  9
$USERI1
 70
     0
  9
$USERI2
 70
     0
  9
$USERI3
 70
     0
  9
$USERI4
 70
     0
  9
$USERI5
 70
     0
  9
$USERR1
 40
0.0
  9
$USERR2
 40
0.0
  9
$USERR3
 40
0.0
  9
$USERR4
 40
0.0
  9
$USERR5
 40
0.0
  9
$WORLDVIEW
 70
     1
  9
$SHADEDGE
 70
     3
  9
$SHADEDIF
 70
    70
  9
$TILEMODE
 70
     1
  9
$MAXACTVP
 70
    64
  9
$PINSBASE
 10
0.0
 20
0.0
 30
0.0
  9
$PLIMCHECK
 70
     0
  9
$PEXTMIN
 10
1.0000000000E+20
 20
1.0000000000E+20
 30
1.0000000000E+20
  9
$PEXTMAX
 10
-1.0000000000E+20
 20
-1.0000000000E+20
 30
-1.0000000000E+20
  9
$PLIMMIN
 10
0.0
 20
0.0
  9
$PLIMMAX
 10
420.0
 20
297.0
  9
$UNITMODE
 70
     0
  9
$VISRETAIN
 70
     1
  9
$PLINEGEN
 70
     0
  9
$PSLTSCALE
 70
     1
  9
$TREEDEPTH
 70
  3020
  9
$CMLSTYLE
  2
Standard
  9
$CMLJUST
 70
     0
  9
$CMLSCALE
 40
20.0
  9
$PROXYGRAPHICS
 70
     1
  9
$MEASUREMENT
 70
     1
  9
$CELWEIGHT
370
    -1
  9
$ENDCAPS
280
     0
  9
$JOINSTYLE
280
     0
  9
$LWDISPLAY
290
     1
  9
$INSUNITS
 70
     4
  9
$HYPERLINKBASE
  1

  9
$STYLESHEET
  1

  9
$XEDIT
290
     1
  9
$CEPSNTYPE
380
     0
  9
$PSTYLEMODE
290
     1
  9
$FINGERPRINTGUID
  2
{36f1c252-cedc-49e4-90f3-17b3a6af6d48}
  9
$VERSIONGUID
  2
{FAEB1C32-E019-11D5-929B-00C0DF256EC4}
  9
$EXTNAMES
290
     1
  9
$PSVPSCALE
 40
0.0
  9
$OLESTARTUP
290
     0
  0
ENDSEC
  0
SECTION
  2
CLASSES
  0
CLASS
  1
ACDBDICTIONARYWDFLT
  2
AcDbDictionaryWithDefault
  3
ObjectDBX Classes
 90
        0
280
     0
281
     0
  0
CLASS
  1
VISUALSTYLE
  2
AcDbVisualStyle
  3
ObjectDBX Classes
 90
     4095
280
     0
281
     0
  0
CLASS
  1
MATERIAL
  2
AcDbMaterial
  3
ObjectDBX Classes
 90
     1153
280
     0
281
     0
  0
CLASS
  1
SCALE
  2
AcDbScale
  3
ObjectDBX Classes
 90
     1153
280
     0
281
     0
  0
CLASS
  1
TABLESTYLE
  2
AcDbTableStyle
  3
ObjectDBX Classes
 90
     4095
280
     0
281
     0
  0
CLASS
  1
MLEADERSTYLE
  2
AcDbMLeaderStyle
  3
ACDB_MLEADERSTYLE_CLASS
 90
     4095
280
     0
281
     0
  0
CLASS
  1
SUN
  2
AcDbSun
  3
SCENEOE
 90
     1153
280
     0
281
     0
  0
CLASS
  1
ACDBPLACEHOLDER
  2
AcDbPlaceHolder
  3
ObjectDBX Classes
 90
        0
280
     0
281
     0
  0
CLASS
  1
LAYOUT
  2
AcDbLayout
  3
ObjectDBX Classes
 90
        0
280
     0
281
     0
  0
ENDSEC
  0
SECTION
  2
TABLES
  0
TABLE
  2
VPORT
  5
8
330
0
100
AcDbSymbolTable
 70
     1
  0
VPORT
  5
29
330
8
100
AcDbSymbolTableRecord
100
AcDbViewportTableRecord
  2
*Active
 70
     0
 10
0.0
 20
0.0
 11
1.0
 21
1.0
 12
139.7
 22
107.95
 13
0.0
 23
0.0
 14
10.0
 24
10.0
 15
10.0
 25
10.0
 16
0.0
 26
0.0
 36
1.0
 17
0.0
 27
0.0
 37
0.0
 40
215.9
 41
1.2941176471
 42
50.0
 43
0.0
 44
0.0
 50
0.0
 51
0.0
 71
     0
 72
  2000
 73
     1
 74
     3
 75
     0
 76
     0
 77
     0
 78
     0
281
     0
 65
     1
110
0.0
120
0.0
130
0.0
111
1.0
121
0.0
131
0.0
112
0.0
122
1.0
132
0.0
 79
     0
146
0.0
  0
ENDTAB
  0
TABLE
  2
LTYPE
  5
5
330
0
100
AcDbSymbolTable
 70
     6
  0
LTYPE
  5
14
330
5
100
AcDbSymbolTableRecord
100
AcDbLinetypeTableRecord
  2
ByBlock
 70
     0
  3

 72
    65
 73
     0
 40
0.0
  0
LTYPE
  5
15
330
5
100
AcDbSymbolTableRecord
100
AcDbLinetypeTableRecord
  2
ByLayer
 70
     0
  3

 72
    65
 73
     0
 40
0.0
  0
LTYPE
  5
16
330
5
100
AcDbSymbolTableRecord
100
AcDbLinetypeTableRecord
  2
Continuous
 70
     0
  3
Solid line
 72
    65
 73
     0
 40
0.0
  0
LTYPE
  5
6E
330
5
100
AcDbSymbolTableRecord
100
AcDbLinetypeTableRecord
  2
HIDDEN
 70
     0
  3
Hidden __ __ __ __ __ __ __ __ __ __ __ __ __ __
 72
    65
 73
     2
 40
1.905
 49
1.27
 74
     0
 49
-0.635
 74
     0
  0
LTYPE
  5
6F
330
5
100
AcDbSymbolTableRecord
100
AcDbLinetypeTableRecord
  2
PHANTOM
 70
     0
  3
Phantom ______  __  __  ______  __  __  ______
 72
    65
 73
     6
 40
12.7
 49
6.35
 74
     0
 49
-1.27
 74
     0
 49
1.27
 74
     0
 49
-1.27
 74
     0
 49
1.27
 74
     0
 49
-1.27
 74
     0
  0
LTYPE
  5
70
330
5
100
AcDbSymbolTableRecord
100
AcDbLinetypeTableRecord
  2
CENTER
 70
     0
  3
Center ____ _ ____ _ ____ _ ____ _ ____ _ ____
 72
    65
 73
     4
 40
10.16
 49
6.35
 74
     0
 49
-1.27
 74
     0
 49
1.27
 74
     0
 49
-1.27
 74
     0
  0
LTYPE
  5
71
330
5
100
AcDbSymbolTableRecord
100
AcDbLinetypeTableRecord
  2
CENTERX2
 70
     0
  3
Center (2x) ________  __  ________  __  _____
 72
    65
 73
     4
 40
20.32
 49
12.7
 74
     0
 49
-2.54
 74
     0
 49
2.54
 74
     0
 49
-2.54
 74
     0
  0
LTYPE
  5
72
330
5
100
AcDbSymbolTableRecord
100
AcDbLinetypeTableRecord
  2
DOT2
 70
     0
  3
Dot (.5x) ........................................
 72
    65
 73
     2
 40
0.635
 49
0.0
 74
     0
 49
-0.635
 74
     0
  0
ENDTAB
  0
TABLE
  2
LAYER
  5
2
330
0
100
AcDbSymbolTable
 70
    17
  0
LAYER
  5
10
330
2
100
AcDbSymbolTableRecord
100
AcDbLayerTableRecord
  2
0
 70
     0
 62
     7
  6
Continuous
370
    -3
390
F
  0
LAYER
  5
73
330
2
100
AcDbSymbolTableRecord
100
AcDbLayerTableRecord
  2
FORMAT
 70
     0
 62
     7
  6
Continuous
370
    -3
390
F
  0
LAYER
  5
74
330
2
100
AcDbSymbolTableRecord
100
AcDbLayerTableRecord
  2
YARDIMCI_GEOMETRI
 70
     0
 62
    -6
  6
Continuous
290
     0
370
    -3
390
F
  0
LAYER
  5
75
330
2
100
AcDbSymbolTableRecord
100
AcDbLayerTableRecord
  2
SAYFA_CERCEVESI
 70
     0
 62
     7
  6
Continuous
370
    25
390
F
  0
LAYER
  5
76
330
2
100
AcDbSymbolTableRecord
100
AcDbLayerTableRecord
  2
ANTET
 70
     0
 62
     7
  6
Continuous
370
    -3
390
F
  0
LAYER
  5
77
330
2
100
AcDbSymbolTableRecord
100
AcDbLayerTableRecord
  2
OLCU
 70
     0
 62
   150
  6
Continuous
370
    -3
390
F
  0
LAYER
  5
78
330
2
100
AcDbSymbolTableRecord
100
AcDbLayerTableRecord
  2
METIN
 70
     0
 62
    96
  6
Continuous
370
    -3
390
F
  0
LAYER
  5
79
330
2
100
AcDbSymbolTableRecord
100
AcDbLayerTableRecord
  2
BALON
 70
     0
 62
     5
  6
Continuous
370
    -3
390
F
  0
LAYER
  5
7A
330
2
100
AcDbSymbolTableRecord
100
AcDbLayerTableRecord
  2
VURGU
 70
     0
 62
     7
  6
Continuous
370
    -3
390
F
  0
LAYER
  5
7B
330
2
100
AcDbSymbolTableRecord
100
AcDbLayerTableRecord
  2
SILIK
 70
     0
 62
     7
  6
Continuous
370
    -3
390
F
  0
LAYER
  5
7C
330
2
100
AcDbSymbolTableRecord
100
AcDbLayerTableRecord
  2
MODEL
 70
     0
 62
     7
  6
Continuous
370
    -3
390
F
  0
LAYER
  5
7D
330
2
100
AcDbSymbolTableRecord
100
AcDbLayerTableRecord
  2
DETAYLANDıRMA
 70
     0
 62
   190
  6
Continuous
370
    -3
390
F
  0
LAYER
  5
7E
330
2
100
AcDbSymbolTableRecord
100
AcDbLayerTableRecord
  2
TOLERANS
 70
     0
 62
   230
  6
Continuous
370
    -3
390
F
  0
LAYER
  5
7F
330
2
100
AcDbSymbolTableRecord
100
AcDbLayerTableRecord
  2
MERKEZ_CIZGILERI
 70
     0
 62
    30
  6
Continuous
370
    -3
390
F
  0
LAYER
  5
80
330
2
100
AcDbSymbolTableRecord
100
AcDbLayerTableRecord
  2
KESIT-DETAY_CIZGILERI
 70
     0
 62
     7
  6
Continuous
370
    -3
390
F
  0
LAYER
  5
81
330
2
100
AcDbSymbolTableRecord
100
AcDbLayerTableRecord
  2
\U+041E\U+0421\U+0415\U+0412\U+042B\U+0415
 70
     0
 62
     7
  6
Continuous
370
    -3
390
F
  0
LAYER
  5
82
330
2
100
AcDbSymbolTableRecord
100
AcDbLayerTableRecord
  2
\U+0412\U+041E\U+0414\U+042F\U+041D\U+042B\U+0415_\U+0417\U+041D\U+0410\U+041A\U+0418
 70
     0
 62
    11
  6
Continuous
370
    -3
390
F
  0
ENDTAB
  0
TABLE
  2
STYLE
  5
3
330
0
100
AcDbSymbolTable
 70
     1
  0
STYLE
  5
11
330
3
100
AcDbSymbolTableRecord
100
AcDbTextStyleTableRecord
  2
Standard
 70
     0
 40
0.0
 41
1.0
 50
0.0
 71
     0
 42
3.5
  3
txt
  4

  0
ENDTAB
  0
TABLE
  2
VIEW
  5
6
330
0
100
AcDbSymbolTable
 70
     0
  0
ENDTAB
  0
TABLE
  2
UCS
  5
7
330
0
100
AcDbSymbolTable
 70
     0
  0
ENDTAB
  0
TABLE
  2
APPID
  5
9
330
0
100
AcDbSymbolTable
 70
     1
  0
APPID
  5
12
330
9
100
AcDbSymbolTableRecord
100
AcDbRegAppTableRecord
  2
ACAD
 70
     0
  0
ENDTAB
  0
TABLE
  2
DIMSTYLE
  5
A
330
0
100
AcDbSymbolTable
 70
     1
100
AcDbDimStyleTable
  0
DIMSTYLE
105
27
330
A
100
AcDbSymbolTableRecord
100
AcDbDimStyleTableRecord
  2
ISO-25
 70
     0
 41
2.5
 42
0.625
 43
3.75
 44
1.25
 73
     0
 74
     0
 77
     1
 78
     8
140
2.5
141
2.5
143
0.0393700787
147
0.625
171
     3
172
     1
178
     0
271
     2
272
     2
274
     3
278
    44
283
     0
284
     8
340
11
  0
ENDTAB
  0
TABLE
  2
BLOCK_RECORD
  5
1
330
0
100
AcDbSymbolTable
 70
     2
  0
BLOCK_RECORD
  5
1F
330
1
100
AcDbSymbolTableRecord
100
AcDbBlockTableRecord
  2
*Model_Space
340
22
  0
BLOCK_RECORD
  5
1B
330
1
100
AcDbSymbolTableRecord
100
AcDbBlockTableRecord
  2
*Paper_Space
340
1E
  0
BLOCK_RECORD
  5
23
330
1
100
AcDbSymbolTableRecord
100
AcDbBlockTableRecord
  2
*Paper_Space0
340
26
  0
BLOCK_RECORD
  5
87
330
1
100
AcDbSymbolTableRecord
100
AcDbBlockTableRecord
  2
SW_CENTERMARKSYMBOL_0
340
0
102
{BLKREFS
331
92
102
}
  0
ENDTAB
  0
ENDSEC
  0
SECTION
  2
BLOCKS
  0
BLOCK
  5
20
330
1F
100
AcDbEntity
  8
0
100
AcDbBlockBegin
  2
*Model_Space
 70
     0
 10
0.0
 20
0.0
 30
0.0
  3
*Model_Space
  1

  0
ENDBLK
  5
21
330
1F
100
AcDbEntity
  8
0
100
AcDbBlockEnd
  0
BLOCK
  5
1C
330
1B
100
AcDbEntity
 67
     1
  8
0
100
AcDbBlockBegin
  2
*Paper_Space
 70
     0
 10
0.0
 20
0.0
 30
0.0
  3
*Paper_Space
  1

  0
ENDBLK
  5
1D
330
1B
100
AcDbEntity
 67
     1
  8
0
100
AcDbBlockEnd
  0
BLOCK
  5
24
330
23
100
AcDbEntity
  8
0
100
AcDbBlockBegin
  2
*Paper_Space0
 70
     0
 10
0.0
 20
0.0
 30
0.0
  3
*Paper_Space0
  1

  0
ENDBLK
  5
25
330
23
100
AcDbEntity
  8
0
100
AcDbBlockEnd
  0
BLOCK
  5
88
330
87
100
AcDbEntity
  8
0
100
AcDbBlockBegin
  2
SW_CENTERMARKSYMBOL_0
 70
     0
 10
0.0
 20
0.0
 30
0.0
  3
SW_CENTERMARKSYMBOL_0
  1

  0
LINE
  5
8A
330
87
100
AcDbEntity
  8
FORMAT
 62
     0
100
AcDbLine
 10
0.0
 20
0.0
 30
0.0
 11
0.0
 21
2.5
 31
0.0
  0
LINE
  5
8B
330
87
100
AcDbEntity
  8
FORMAT
 62
     0
100
AcDbLine
 10
0.0
 20
0.0
 30
0.0
 11
-2.5
 21
0.0
 31
0.0
  0
LINE
  5
8C
330
87
100
AcDbEntity
  8
FORMAT
 62
     0
100
AcDbLine
 10
0.0
 20
0.0
 30
0.0
 11
0.0
 21
-2.5
 31
0.0
  0
LINE
  5
8D
330
87
100
AcDbEntity
  8
FORMAT
 62
     0
100
AcDbLine
 10
0.0
 20
0.0
 30
0.0
 11
2.5
 21
0.0
 31
0.0
  0
LINE
  5
8E
330
87
100
AcDbEntity
  8
FORMAT
 62
     0
100
AcDbLine
 10
0.0
 20
5.0
 30
0.0
 11
0.0
 21
52.5
 31
0.0
  0
LINE
  5
8F
330
87
100
AcDbEntity
  8
FORMAT
 62
     0
100
AcDbLine
 10
-5.0
 20
0.0
 30
0.0
 11
-52.5
 21
0.0
 31
0.0
  0
LINE
  5
90
330
87
100
AcDbEntity
  8
FORMAT
 62
     0
100
AcDbLine
 10
0.0
 20
-5.0
 30
0.0
 11
0.0
 21
-52.5
 31
0.0
  0
LINE
  5
91
330
87
100
AcDbEntity
  8
FORMAT
 62
     0
100
AcDbLine
 10
5.0
 20
0.0
 30
0.0
 11
52.5
 21
0.0
 31
0.0
  0
ENDBLK
  5
89
330
87
100
AcDbEntity
  8
0
100
AcDbBlockEnd
  0
ENDSEC
  0
SECTION
  2
ENTITIES
  0
CIRCLE
  5
83
330
1F
100
AcDbEntity
  8
0
  6
Continuous
 62
     7
370
    25
100
AcDbCircle
 10
149.1834262089
 20
108.1671193639
 30
0.0
 40
31.49999999999999
  0
CIRCLE
  5
84
330
1F
100
AcDbEntity
  8
0
  6
Continuous
 62
     7
370
    25
100
AcDbCircle
 10
149.1834262089
 20
108.1671193639
 30
0.0
 40
25.69999999999999
  0
CIRCLE
  5
85
330
1F
100
AcDbEntity
  8
0
  6
Continuous
 62
     7
370
    25
100
AcDbCircle
 10
149.1834262089
 20
108.1671193639
 30
0.0
 40
39.0
  0
CIRCLE
  5
86
330
1F
100
AcDbEntity
  8
0
  6
Continuous
 62
     7
370
    25
100
AcDbCircle
 10
149.1834262089
 20
108.1671193639
 30
0.0
 40
50.0
  0
INSERT
  5
92
330
1F
100
AcDbEntity
  8
FORMAT
 62
     7
100
AcDbBlockReference
  2
SW_CENTERMARKSYMBOL_0
 10
149.1834262089
 20
108.1671193639
 30
0.0
  0
LINE
  5
93
330
1F
100
AcDbEntity
  8
0
  6
Continuous
 62
     7
370
    25
100
AcDbLine
 10
199.1834262089
 20
208.8276681484
 30
0.0
 11
199.1834262089
 21
222.8276681484
 31
0.0
  0
LINE
  5
94
330
1F
100
AcDbEntity
  8
0
  6
Continuous
 62
     7
370
    25
100
AcDbLine
 10
99.1834262089
 20
222.8276681484
 30
0.0
 11
99.1834262089
 21
208.8276681484
 31
0.0
  0
LINE
  5
95
330
1F
100
AcDbEntity
  8
0
  6
Continuous
 62
     7
370
    25
100
AcDbLine
 10
188.1834262089
 20
222.8276681484
 30
0.0
 11
180.6834262089
 21
240.8276681484
 31
0.0
  0
LINE
  5
96
330
1F
100
AcDbEntity
  8
0
  6
Continuous
 62
     7
370
    25
100
AcDbLine
 10
117.6834262089
 20
240.8276681484
 30
0.0
 11
110.1834262089
 21
222.8276681484
 31
0.0
  0
LINE
  5
97
330
1F
100
AcDbEntity
  8
0
  6
Continuous
 62
     7
370
    25
100
AcDbLine
 10
180.6834262089
 20
240.8276681484
 30
0.0
 11
180.6834262089
 21
328.8276681484
 31
0.0
  0
LINE
  5
98
330
1F
100
AcDbEntity
  8
0
  6
Continuous
 62
     7
370
    25
100
AcDbLine
 10
117.6834262089
 20
328.8276681484
 30
0.0
 11
117.6834262089
 21
240.8276681484
 31
0.0
  0
LINE
  5
99
330
1F
100
AcDbEntity
  8
0
  6
Continuous
 62
     7
370
    25
100
AcDbLine
 10
199.1834262089
 20
208.8276681484
 30
0.0
 11
99.1834262089
 21
208.8276681484
 31
0.0
  0
LINE
  5
9A
330
1F
100
AcDbEntity
  8
0
  6
Continuous
 62
     7
370
    25
100
AcDbLine
 10
199.1834262089
 20
222.8276681484
 30
0.0
 11
99.1834262089
 21
222.8276681484
 31
0.0
  0
LINE
  5
9B
330
1F
100
AcDbEntity
  8
0
  6
Continuous
 62
     7
370
    25
100
AcDbLine
 10
180.6834262089
 20
240.8276681484
 30
0.0
 11
117.6834262089
 21
240.8276681484
 31
0.0
  0
LINE
  5
9C
330
1F
100
AcDbEntity
  8
0
  6
Continuous
 62
     7
370
    25
100
AcDbLine
 10
180.6834262089
 20
328.8276681484
 30
0.0
 11
117.6834262089
 21
328.8276681484
 31
0.0
  0
LINE
  5
9D
330
1F
100
AcDbEntity
  8
0
  6
Continuous
 62
     7
370
    25
100
AcDbLine
 10
51.1254204631
 20
158.1671193639
 30
0.0
 11
37.1254204631
 21
158.1671193639
 31
0.0
  0
LINE
  5
9E
330
1F
100
AcDbEntity
  8
0
  6
Continuous
 62
     7
370
    25
100
AcDbLine
 10
37.1254204631
 20
58.1671193639
 30
0.0
 11
51.1254204631
 21
58.1671193639
 31
0.0
  0
LINE
  5
9F
330
1F
100
AcDbEntity
  8
0
  6
Continuous
 62
     7
370
    25
100
AcDbLine
 10
37.1254204631
 20
147.1671193639
 30
0.0
 11
19.1254204631
 21
139.6671193639
 31
0.0
  0
LINE
  5
A0
330
1F
100
AcDbEntity
  8
0
  6
Continuous
 62
     7
370
    25
100
AcDbLine
 10
19.1254204631
 20
76.6671193639
 30
0.0
 11
37.1254204631
 21
69.1671193639
 31
0.0
  0
LINE
  5
A1
330
1F
100
AcDbEntity
  8
0
  6
Continuous
 62
     7
370
    25
100
AcDbLine
 10
19.1254204631
 20
139.6671193639
 30
0.0
 11
-68.8745795369
 21
139.6671193639
 31
0.0
  0
LINE
  5
A2
330
1F
100
AcDbEntity
  8
0
  6
Continuous
 62
     7
370
    25
100
AcDbLine
 10
-68.8745795369
 20
76.6671193639
 30
0.0
 11
19.1254204631
 21
76.6671193639
 31
0.0
  0
LINE
  5
A3
330
1F
100
AcDbEntity
  8
0
  6
Continuous
 62
     7
370
    25
100
AcDbLine
 10
51.1254204631
 20
158.1671193639
 30
0.0
 11
51.1254204631
 21
58.1671193639
 31
0.0
  0
LINE
  5
A4
330
1F
100
AcDbEntity
  8
0
  6
Continuous
 62
     7
370
    25
100
AcDbLine
 10
37.1254204631
 20
158.1671193639
 30
0.0
 11
37.1254204631
 21
58.1671193639
 31
0.0
  0
LINE
  5
A5
330
1F
100
AcDbEntity
  8
0
  6
Continuous
 62
     7
370
    25
100
AcDbLine
 10
19.1254204631
 20
139.6671193639
 30
0.0
 11
19.1254204631
 21
76.6671193639
 31
0.0
  0
LINE
  5
A6
330
1F
100
AcDbEntity
  8
0
  6
Continuous
 62
     7
370
    25
100
AcDbLine
 10
-68.8745795369
 20
139.6671193639
 30
0.0
 11
-68.8745795369
 21
76.6671193639
 31
0.0
  0
LINE
  5
A7
330
1F
100
AcDbEntity
  8
0
  6
Continuous
 62
     7
370
    25
100
AcDbLine
 10
250.8708389381
 20
58.1671193639
 30
0.0
 11
264.8708389381
 21
58.1671193639
 31
0.0
  0
LINE
  5
A8
330
1F
100
AcDbEntity
  8
0
  6
Continuous
 62
     7
370
    25
100
AcDbLine
 10
264.8708389381
 20
158.1671193639
 30
0.0
 11
250.8708389381
 21
158.1671193639
 31
0.0
  0
LINE
  5
A9
330
1F
100
AcDbEntity
  8
0
  6
Continuous
 62
     7
370
    25
100
AcDbLine
 10
264.8708389381
 20
69.1671193639
 30
0.0
 11
282.8708389381
 21
76.6671193639
 31
0.0
  0
LINE
  5
AA
330
1F
100
AcDbEntity
  8
0
  6
Continuous
 62
     7
370
    25
100
AcDbLine
 10
282.8708389381
 20
139.6671193639
 30
0.0
 11
264.8708389381
 21
147.1671193639
 31
0.0
  0
LINE
  5
AB
330
1F
100
AcDbEntity
  8
0
  6
Continuous
 62
     7
370
    25
100
AcDbLine
 10
282.8708389381
 20
76.6671193639
 30
0.0
 11
370.8708389381
 21
76.6671193639
 31
0.0
  0
LINE
  5
AC
330
1F
100
AcDbEntity
  8
0
  6
Continuous
 62
     7
370
    25
100
AcDbLine
 10
370.8708389381
 20
139.6671193639
 30
0.0
 11
282.8708389381
 21
139.6671193639
 31
0.0
  0
LINE
  5
AD
330
1F
100
AcDbEntity
  8
0
  6
Continuous
 62
     7
370
    25
100
AcDbLine
 10
250.8708389381
 20
108.1671193639
 30
0.0
 11
250.8708389381
 21
158.1671193639
 31
0.0
  0
LINE
  5
AE
330
1F
100
AcDbEntity
  8
0
  6
Continuous
 62
     7
370
    25
100
AcDbLine
 10
250.8708389381
 20
58.1671193639
 30
0.0
 11
250.8708389381
 21
108.1671193639
 31
0.0
  0
LINE
  5
AF
330
1F
100
AcDbEntity
  8
0
  6
Continuous
 62
     7
370
    25
100
AcDbLine
 10
264.8708389381
 20
108.1671193639
 30
0.0
 11
264.8708389381
 21
158.1671193639
 31
0.0
  0
LINE
  5
B0
330
1F
100
AcDbEntity
  8
0
  6
Continuous
 62
     7
370
    25
100
AcDbLine
 10
264.8708389381
 20
58.1671193639
 30
0.0
 11
264.8708389381
 21
108.1671193639
 31
0.0
  0
LINE
  5
B1
330
1F
100
AcDbEntity
  8
0
  6
Continuous
 62
     7
370
    25
100
AcDbLine
 10
282.8708389381
 20
108.1671193639
 30
0.0
 11
282.8708389381
 21
139.6671193639
 31
0.0
  0
LINE
  5
B2
330
1F
100
AcDbEntity
  8
0
  6
Continuous
 62
     7
370
    25
100
AcDbLine
 10
282.8708389381
 20
76.6671193639
 30
0.0
 11
282.8708389381
 21
108.1671193639
 31
0.0
  0
LINE
  5
B3
330
1F
100
AcDbEntity
  8
0
  6
Continuous
 62
     7
370
    25
100
AcDbLine
 10
370.8708389381
 20
108.1671193639
 30
0.0
 11
370.8708389381
 21
139.6671193639
 31
0.0
  0
LINE
  5
B4
330
1F
100
AcDbEntity
  8
0
  6
Continuous
 62
     7
370
    25
100
AcDbLine
 10
370.8708389381
 20
76.6671193639
 30
0.0
 11
370.8708389381
 21
108.1671193639
 31
0.0
  0
LINE
  5
B5
330
1F
100
AcDbEntity
  8
0
  6
Continuous
 62
     7
370
    25
100
AcDbLine
 10
99.1834262089
 20
-6.2702970187
 30
0.0
 11
99.1834262089
 21
-20.2702970187
 31
0.0
  0
LINE
  5
B6
330
1F
100
AcDbEntity
  8
0
  6
Continuous
 62
     7
370
    25
100
AcDbLine
 10
199.1834262089
 20
-20.2702970187
 30
0.0
 11
199.1834262089
 21
-6.2702970187
 31
0.0
  0
LINE
  5
B7
330
1F
100
AcDbEntity
  8
0
  6
Continuous
 62
     7
370
    25
100
AcDbLine
 10
110.1834262089
 20
-20.2702970187
 30
0.0
 11
117.6834262089
 21
-38.2702970187
 31
0.0
  0
LINE
  5
B8
330
1F
100
AcDbEntity
  8
0
  6
Continuous
 62
     7
370
    25
100
AcDbLine
 10
180.6834262089
 20
-38.2702970187
 30
0.0
 11
188.1834262089
 21
-20.2702970187
 31
0.0
  0
LINE
  5
B9
330
1F
100
AcDbEntity
  8
0
  6
Continuous
 62
     7
370
    25
100
AcDbLine
 10
117.6834262089
 20
-38.2702970187
 30
0.0
 11
117.6834262089
 21
-126.2702970187
 31
0.0
  0
LINE
  5
BA
330
1F
100
AcDbEntity
  8
0
  6
Continuous
 62
     7
370
    25
100
AcDbLine
 10
180.6834262089
 20
-126.2702970187
 30
0.0
 11
180.6834262089
 21
-38.2702970187
 31
0.0
  0
LINE
  5
BB
330
1F
100
AcDbEntity
  8
0
  6
Continuous
 62
     7
370
    25
100
AcDbLine
 10
99.1834262089
 20
-6.2702970187
 30
0.0
 11
199.1834262089
 21
-6.2702970187
 31
0.0
  0
LINE
  5
BC
330
1F
100
AcDbEntity
  8
0
  6
Continuous
 62
     7
370
    25
100
AcDbLine
 10
99.1834262089
 20
-20.2702970187
 30
0.0
 11
199.1834262089
 21
-20.2702970187
 31
0.0
  0
LINE
  5
BD
330
1F
100
AcDbEntity
  8
0
  6
Continuous
 62
     7
370
    25
100
AcDbLine
 10
117.6834262089
 20
-38.2702970187
 30
0.0
 11
180.6834262089
 21
-38.2702970187
 31
0.0
  0
LINE
  5
BE
330
1F
100
AcDbEntity
  8
0
  6
Continuous
 62
     7
370
    25
100
AcDbLine
 10
117.6834262089
 20
-126.2702970187
 30
0.0
 11
180.6834262089
 21
-126.2702970187
 31
0.0
  0
LINE
  5
BF
330
1F
100
AcDbEntity
  8
0
  6
Continuous
 62
     7
370
    25
100
AcDbLine
 10
342.6974427684
 20
-38.0750004331
 30
0.0
 11
280.472046024
 21
-2.1530435129
 31
0.0
  0
LINE
  5
C0
330
1F
100
AcDbEntity
  8
0
  6
Continuous
 62
     7
370
    25
100
AcDbLine
 10
248.974605946
 20
-56.7141218429
 30
0.0
 11
311.2000026904
 21
-92.6360787631
 31
0.0
  0
LINE
  5
C1
330
1F
100
AcDbEntity
  8
0
  6
Continuous
 62
     7
370
    25
100
AcDbLine
 10
374.5741080433
 20
-35.1156262682
 30
0.0
 11
364.6746131067
 21
-29.4007694855
 31
0.0
  0
LINE
  5
C2
330
1F
100
AcDbEntity
  8
0
  6
Continuous
 62
     7
370
    25
100
AcDbLine
 10
314.6786764748
 20
-116.0056557235
 30
0.0
 11
324.5781714115
 21
-121.7205125063
 31
0.0
  0
LINE
  5
C3
330
1F
100
AcDbEntity
  8
0
  6
Continuous
 62
     7
370
    25
100
AcDbLine
 10
352.5632456534
 20
-37.1096015465
 30
0.0
 11
340.3241909281
 21
-36.704951308
 31
0.0
  0
LINE
  5
C4
330
1F
100
AcDbEntity
  8
0
  6
Continuous
 62
     7
370
    25
100
AcDbLine
 10
308.82675085
 20
-91.266029638
 30
0.0
 11
315.2976912068
 21
-101.6624296536
 31
0.0
  0
LWPOLYLINE
  5
C5
330
1F
100
AcDbEntity
  8
0
  6
Continuous
 62
     7
370
    25
100
AcDbPolyline
 90
       51
 70
   128
 43
0.0
 10
342.6974427684
 20
-38.0750004331
 10
343.5486414329
 20
-38.6226213267
 10
344.4571621498
 20
-39.3484433876
 10
345.2951825608
 20
-40.1789868459
 10
346.0593282532
 20
-41.1109073963
 10
346.7465222821
 20
-42.1404525235
 10
347.3539975598
 20
-43.2634766127
 10
347.8793079976
 20
-44.4754576423
 10
348.3203383559
 20
-45.7715153925
 10
348.6753127611
 20
-47.1464310961
 10
348.9428018564
 20
-48.5946684528
 10
349.1217285578
 20
-50.110395922
 10
349.2113723905
 20
-51.6875102041
 10
349.2113723905
 20
-53.3196608165
 10
349.1217285578
 20
-55.0002756648
 10
348.9428018564
 20
-56.7225875061
 10
348.6753127611
 20
-58.4796611985
 10
348.3203383559
 20
-60.2644216265
 10
347.8793079976
 20
-62.0696821896
 10
347.3539975598
 20
-63.8881737408
 10
346.7465222821
 20
-65.7125738564
 10
346.0593282532
 20
-67.5355363211
 10
345.2951825608
 20
-69.3497207084
 10
344.4571621498
 20
-71.1478219381
 10
343.5486414329
 20
-72.9225996911
 10
342.5732787022
 20
-74.6669075639
 10
341.5350013991
 20
-76.3737218443
 10
340.4379903
 20
-78.0361697936
 10
339.2866626813
 20
-79.6475573206
 10
338.0856545331
 20
-81.2013959366
 10
336.8398018912
 20
-82.6914288817
 10
335.5541213645
 20
-84.1116563193
 10
334.2337899347
 20
-85.4563594948
 10
332.8841241105
 20
-86.7201237629
 10
331.5105585198
 20
-87.8978603912
 10
330.1186240264
 20
-88.9848270497
 10
328.7139254593
 20
-89.9766469075
 10
327.3021190438
 20
-90.8693262561
 10
325.8888896262
 20
-91.6592705907
 10
324.4799277823
 20
-92.3432990843
 10
323.0809069044
 20
-92.9186573956
 10
321.6974603556
 20
-93.3830287599
 10
320.3351587871
 20
-93.7345433173
 10
318.9994877063
 20
-93.971785643
 10
317.6958253893
 20
-94.0938004458
 10
316.4294212242
 20
-94.1000964152
 10
315.2053745735
 20
-93.9906481994
 10
314.0286142411
 20
-93.7658965079
 10
312.9038786255
 20
-93.4267463364
 10
311.83569664
 20
-92.9745633229
 10
311.2000026904
 20
-92.6360787631
  0
LWPOLYLINE
  5
C6
330
1F
100
AcDbEntity
  8
0
  6
Continuous
 62
     7
370
    25
100
AcDbPolyline
 90
      100
 70
   128
 43
0.0
 10
242.4494623776
 20
-42.2920104391
 10
242.4943068713
 20
-40.6347933702
 10
242.6286597793
 20
-38.9324729792
 10
242.85198011
 20
-37.1919039096
 10
243.1633686311
 20
-35.4200948186
 10
243.5615714911
 20
-33.6241801561
 10
244.0449852675
 20
-31.8113914367
 10
244.6116634237
 20
-29.9890281206
 10
245.2593241467
 20
-28.1644282217
 10
245.9853595355
 20
-26.3449387599
 10
246.7868461017
 20
-24.537886177
 10
247.6605565418
 20
-22.7505468361
 10
248.6029727322
 20
-20.9901177217
 10
249.6102998956
 20
-19.2636874606
 10
250.6784818811
 20
-17.5782077782
 10
251.8032174967
 20
-15.9404655063
 10
252.9799778291
 20
-14.3570552548
 10
254.2040244798
 20
-12.8343528581
 10
255.4704286449
 20
-11.3784897014
 10
256.7740909619
 20
-9.9953280316
 10
258.1097620427
 20
-8.6904373526
 10
259.4720636112
 20
-7.4690719987
 10
260.85551016
 20
-6.3361499771
 10
262.2545310379
 20
-5.2962331649
 10
263.6634928817
 20
-4.35350894
 10
265.0767222994
 20
-3.5117733202
 10
266.4885287149
 20
-2.7744156778
 10
267.893227282
 20
-2.1444050917
 10
269.2851617753
 20
-1.6242783921
 10
270.658727366
 20
-1.2161299459
 10
272.0083931903
 20
-0.9216032226
 10
273.32872462
 20
-0.7418841774
 10
274.6144051467
 20
-0.6776964755
 10
275.8602577887
 20
-0.7292985782
 10
277.0612659369
 20
-0.8964827019
 10
278.2125935556
 20
-1.1785756553
 10
279.3096046547
 20
-1.5744415495
 10
280.3478819577
 20
-2.0824863723
 10
281.3232446885
 20
-2.7006644065
 10
282.2317654054
 20
-3.4264864674
 10
283.0697858163
 20
-4.2570299257
 10
283.8339315088
 20
-5.1889504761
 10
284.5211255377
 20
-6.2184956033
 10
285.1286008154
 20
-7.3415196925
 10
285.6539112532
 20
-8.5535007221
 10
286.0949416115
 20
-9.8495584723
 10
286.4499160166
 20
-11.2244741759
 10
286.717405112
 20
-12.6727115326
 10
286.8963318133
 20
-14.1884390018
 10
286.9859756461
 20
-15.7655532839
 10
286.9859756461
 20
-17.3977038963
 10
286.8963318133
 20
-19.0783187446
 10
286.717405112
 20
-20.8006305859
 10
286.4499160166
 20
-22.5577042783
 10
286.0949416115
 20
-24.3424647063
 10
285.6539112532
 20
-26.1477252694
 10
285.1286008154
 20
-27.9662168206
 10
284.5211255377
 20
-29.7906169362
 10
283.8339315088
 20
-31.6135794009
 10
283.0697858163
 20
-33.4277637882
 10
282.2317654054
 20
-35.2258650179
 10
281.3232446885
 20
-37.0006427709
 10
280.3478819577
 20
-38.7449506437
 10
279.3096046547
 20
-40.4517649241
 10
278.2125935556
 20
-42.1142128734
 10
277.0612659369
 20
-43.7256004004
 10
275.8602577887
 20
-45.2794390164
 10
274.6144051467
 20
-46.7694719615
 10
273.32872462
 20
-48.1896993991
 10
272.0083931903
 20
-49.5344025746
 10
270.658727366
 20
-50.7981668427
 10
269.2851617753
 20
-51.975903471
 10
267.893227282
 20
-53.0628701295
 10
266.4885287149
 20
-54.0546899873
 10
265.0767222994
 20
-54.9473693359
 10
263.6634928817
 20
-55.7373136705
 10
262.2545310379
 20
-56.4213421641
 10
260.85551016
 20
-56.9967004754
 10
259.4720636112
 20
-57.4610718397
 10
258.1097620427
 20
-57.8125863971
 10
256.7740909619
 20
-58.0498287228
 10
255.4704286449
 20
-58.1718435256
 10
254.2040244798
 20
-58.178139495
 10
252.9799778291
 20
-58.0686912792
 10
251.8032174967
 20
-57.8439395877
 10
250.6784818811
 20
-57.5047894162
 10
249.6102998956
 20
-57.0526064027
 10
248.6029727322
 20
-56.4892113287
 10
247.6605565418
 20
-55.8168727871
 10
246.7868461017
 20
-55.0382980482
 10
245.9853595355
 20
-54.1566221574
 10
245.2593241467
 20
-53.1753953125
 10
244.6116634237
 20
-52.0985685677
 10
244.0449852675
 20
-50.9304779241
 10
243.5615714911
 20
-49.6758268706
 10
243.1633686311
 20
-48.3396674441
 10
242.85198011
 20
-46.927379887
 10
242.6286597793
 20
-45.4446509829
 10
242.4943068713
 20
-43.8974511577
 10
242.4494623776
 20
-42.2920104391
  0
LWPOLYLINE
  5
C7
330
1F
100
AcDbEntity
  8
0
  6
Continuous
 62
     7
370
    25
100
AcDbPolyline
 90
       90
 70
   128
 43
0.0
 10
246.5506817085
 20
-39.9244269148
 10
246.5959493083
 20
-38.4180274563
 10
246.7315265869
 20
-36.8668679458
 10
246.9567381051
 20
-35.2786761821
 10
247.2704618704
 20
-33.6613644565
 10
247.6711349269
 20
-32.0229901347
 10
248.1567611414
 20
-30.3717155153
 10
248.7249211487
 20
-28.7157671652
 10
249.3727844041
 20
-27.063394936
 10
250.0971232855
 20
-25.4228308628
 10
250.894329173
 20
-23.8022481534
 10
251.7604304271
 20
-22.2097204694
 10
252.6911121747
 20
-20.6531817035
 10
253.6817378064
 20
-19.1403864536
 10
254.7273720749
 20
-17.6788713896
 10
255.822805683
 20
-16.2759177058
 10
256.9625812355
 20
-14.9385148472
 10
258.141020428
 20
-13.6733256873
 10
259.3522523356
 20
-12.486653335
 10
260.590242662
 20
-11.3844097322
 10
261.8488238017
 20
-10.3720862012
 10
263.1217255666
 20
-9.4547260867
 10
264.4026064242
 20
-8.6368996309
 10
265.6850850906
 20
-7.9226812039
 10
266.9627723215
 20
-7.3156290059
 10
268.2293027433
 20
-6.8187673407
 10
269.4783665653
 20
-6.4345715478
 10
270.7037410144
 20
-6.1649556715
 10
271.8993213366
 20
-6.0112629246
 10
273.0591512109
 20
-5.9742589964
 10
274.1774524232
 20
-6.0541282388
 10
275.2486536532
 20
-6.2504727472
 10
276.2674182301
 20
-6.5623143431
 10
277.2286707202
 20
-6.9880994474
 10
278.1276222119
 20
-7.5257068202
 10
278.959794174
 20
-8.1724581284
 10
279.7210407677
 20
-8.9251312897
 10
280.4075695008
 20
-9.7799765242
 10
281.0159601216
 20
-10.7327350359
 10
281.5431816587
 20
-11.7786602299
 10
281.9866075208
 20
-12.9125413595
 10
282.3440285828
 20
-14.1287294859
 10
282.6136641907
 20
-15.421165621
 10
282.7941710337
 20
-16.7834109131
 10
282.8846498356
 20
-18.2086787246
 10
282.8846498356
 20
-19.6898684429
 10
282.7941710337
 20
-21.2196008554
 10
282.6136641907
 20
-22.7902549122
 10
282.3440285828
 20
-24.3940056938
 10
281.9866075208
 20
-26.0228633944
 10
281.5431816587
 20
-27.6687131269
 10
281.0159601216
 20
-29.3233553507
 10
280.4075695008
 20
-30.9785467216
 10
279.7210407677
 20
-32.6260411592
 10
278.959794174
 20
-34.2576309293
 10
278.1276222119
 20
-35.8651875337
 10
277.2286707202
 20
-37.4407022062
 10
276.2674182301
 20
-38.976325812
 10
275.2486536532
 20
-40.4644079515
 10
274.1774524232
 20
-41.8975350744
 10
273.0591512109
 20
-43.2685674134
 10
271.8993213366
 20
-44.5706745543
 10
270.7037410144
 20
-45.7973694649
 10
269.4783665653
 20
-46.9425408129
 10
268.2293027433
 20
-48.0004834122
 10
266.9627723215
 20
-48.965926646
 10
265.6850850906
 20
-49.8340607246
 10
264.4026064242
 20
-50.6005606478
 10
263.1217255666
 20
-51.2616077514
 10
261.8488238017
 20
-51.8139087322
 10
260.590242662
 20
-52.2547120542
 10
259.3522523356
 20
-52.5818216577
 10
258.141020428
 20
-52.793607899
 10
256.9625812355
 20
-52.8890156696
 10
255.822805683
 20
-52.867569653
 10
254.7273720749
 20
-52.729376692
 10
253.6817378064
 20
-52.475125257
 10
252.6911121747
 20
-52.1060820159
 10
251.7604304271
 20
-51.6240855236
 10
250.894329173
 20
-51.0315370623
 10
250.0971232855
 20
-50.3313886787
 10
249.3727844041
 20
-49.5271284768
 10
248.7249211487
 20
-48.6227632405
 10
248.1567611414
 20
-47.6227984718
 10
247.6711349269
 20
-46.532215945
 10
247.2704618704
 20
-45.3564488873
 10
246.9567381051
 20
-44.1013549112
 10
246.7315265869
 20
-42.7731868315
 10
246.5959493083
 20
-41.378561515
 10
246.5506817085
 20
-39.9244269148
  0
LWPOLYLINE
  5
C8
330
1F
100
AcDbEntity
  8
0
  6
Continuous
 62
     7
370
    25
100
AcDbPolyline
 90
       64
 70
   128
 43
0.0
 10
374.5741080433
 20
-35.1156262682
 10
375.2014344676
 20
-35.4964212419
 10
376.4022904192
 20
-36.3380514362
 10
377.5342840267
 20
-37.2877004331
 10
378.5945094787
 20
-38.3429304971
 10
379.5802451918
 20
-39.5010328679
 10
380.4889607965
 20
-40.7590347134
 10
381.3183236329
 20
-42.1137067607
 10
382.0662047384
 20
-43.5615715862
 10
382.730684313
 20
-45.0989125416
 10
383.3100566472
 20
-46.7217832948
 10
383.8028345005
 20
-48.4260179598
 10
384.2077529191
 20
-50.2072417907
 10
384.5237724834
 20
-52.0608824114
 10
384.7500819756
 20
-53.9821815531
 10
384.8861004625
 20
-55.9662072684
 10
384.9314787867
 20
-58.0078665917
 10
384.8861004625
 20
-60.1019186128
 10
384.7500819756
 20
-62.2429879304
 10
384.5237724834
 20
-64.42557845
 10
384.2077529191
 20
-66.6440874932
 10
383.8028345005
 20
-68.892820179
 10
383.3100566472
 20
-71.166004043
 10
382.730684313
 20
-73.4578038547
 10
382.0662047384
 20
-75.7623365968
 10
381.3183236329
 20
-78.073686567
 10
380.4889607965
 20
-80.3859205629
 10
379.5802451918
 20
-82.693103113
 10
378.5945094787
 20
-84.9893117129
 10
377.5342840267
 20
-87.268652028
 10
376.4022904192
 20
-89.5252730244
 10
375.2014344676
 20
-91.7533819884
 10
373.9347987519
 20
-93.9472593961
 10
372.6056347079
 20
-96.1012735959
 10
371.2173542806
 20
-98.209895264
 10
369.7735211659
 20
-100.267711599
 10
368.2778416627
 20
-102.2694402158
 10
366.7341551588
 20
-104.2099427057
 10
365.1464242754
 20
-106.0842378268
 10
363.5187246949
 20
-107.8875142902
 10
361.8552346988
 20
-109.6151431113
 10
360.1602244419
 20
-111.2626894915
 10
358.4380449914
 20
-112.825924203
 10
356.6931171572
 20
-114.3008344446
 10
354.929920144
 20
-115.683634143
 10
353.1529800533
 20
-116.9707736711
 10
351.3668582647
 20
-118.1589489603
 10
349.5761397274
 20
-119.2451099815
 10
347.78542119
 20
-120.2264685751
 10
345.9992994014
 20
-121.1005056076
 10
344.2223593107
 20
-121.8649774385
 10
342.4591622975
 20
-122.5179216795
 10
340.7142344633
 20
-123.0576622322
 10
338.9920550128
 20
-123.4828135903
 10
337.2970447559
 20
-123.7922843963
 10
335.6335547598
 20
-123.9852802432
 10
334.0058551793
 20
-124.0613057133
 10
332.4181242959
 20
-124.0201656504
 10
330.8744377921
 20
-123.8619656604
 10
329.3787582889
 20
-123.5871118405
 10
327.9349251741
 20
-123.1963097364
 10
326.5466447468
 20
-122.6905625315
 10
325.2174807028
 20
-122.0711684717
 10
324.5781714115
 20
-121.7205125063
  0
ARC
  5
C9
330
1F
100
AcDbEntity
  8
0
  6
Continuous
 62
     7
370
    25
100
AcDbCircle
 10
355.7346130625
 20
-93.1934751812
 30
0.0
 40
51.41336966476975
100
AcDbArc
 50
175.069762835
 51
179.9107802221
  0
LWPOLYLINE
  5
CA
330
1F
100
AcDbEntity
  8
0
  6
Continuous
 62
     7
370
    25
100
AcDbPolyline
 90
       98
 70
   128
 43
0.0
 10
336.0089088466
 20
-34.2137919882
 10
336.0998044648
 20
-34.1505083206
 10
337.8859262534
 20
-32.9623330315
 10
339.6766447908
 20
-31.8761720102
 10
341.4673633281
 20
-30.8948134166
 10
343.2534851167
 20
-30.0207763841
 10
345.0304252074
 20
-29.2563045532
 10
346.7936222206
 20
-28.6033603122
 10
348.5385500548
 20
-28.0636197595
 10
350.2607295053
 20
-27.6384684014
 10
351.9557397622
 20
-27.3289975954
 10
353.6192297583
 20
-27.1360017485
 10
355.2469293388
 20
-27.0599762784
 10
356.8346602222
 20
-27.1011163413
 10
358.378346726
 20
-27.2593163313
 10
359.8740262292
 20
-27.5341701513
 10
361.317859344
 20
-27.9249722554
 10
362.7061397713
 20
-28.4307194602
 10
364.0353038153
 20
-29.0501135201
 10
365.301939531
 20
-29.7815644591
 10
366.5027954826
 20
-30.6231946534
 10
367.6347890901
 20
-31.5728436503
 10
368.6950145421
 20
-32.6280737144
 10
369.6807502552
 20
-33.7861760852
 10
370.5894658599
 20
-35.0441779306
 10
371.4188286963
 20
-36.3988499779
 10
372.1667098018
 20
-37.8467148034
 10
372.8311893764
 20
-39.3840557589
 10
373.4105617106
 20
-41.0069265121
 10
373.9033395638
 20
-42.7111611771
 10
374.3082579825
 20
-44.492385008
 10
374.6242775468
 20
-46.3460256287
 10
374.850587039
 20
-48.2673247703
 10
374.9866055259
 20
-50.2513504856
 10
375.0319838501
 20
-52.2930098089
 10
374.9866055259
 20
-54.3870618301
 10
374.850587039
 20
-56.5281311476
 10
374.6242775468
 20
-58.7107216672
 10
374.3082579825
 20
-60.9292307104
 10
373.9033395638
 20
-63.1779633963
 10
373.4105617106
 20
-65.4511472602
 10
372.8311893764
 20
-67.7429470719
 10
372.1667098018
 20
-70.0474798141
 10
371.4188286963
 20
-72.3588297842
 10
370.5894658599
 20
-74.6710637801
 10
369.6807502552
 20
-76.9782463303
 10
368.6950145421
 20
-79.2744549302
 10
367.6347890901
 20
-81.5537952453
 10
366.5027954826
 20
-83.8104162416
 10
365.301939531
 20
-86.0385252056
 10
364.0353038153
 20
-88.2324026134
 10
362.7061397713
 20
-90.3864168131
 10
361.317859344
 20
-92.4950384812
 10
359.8740262292
 20
-94.5528548162
 10
358.378346726
 20
-96.554583433
 10
356.8346602222
 20
-98.495085923
 10
355.2469293388
 20
-100.369381044
 10
353.6192297583
 20
-102.1726575075
 10
351.9557397622
 20
-103.9002863285
 10
350.2607295053
 20
-105.5478327087
 10
348.5385500548
 20
-107.1110674202
 10
346.7936222206
 20
-108.5859776619
 10
345.0304252074
 20
-109.9687773602
 10
343.2534851167
 20
-111.2559168884
 10
341.4673633281
 20
-112.4440921775
 10
339.6766447908
 20
-113.5302531988
 10
337.8859262534
 20
-114.5116117924
 10
336.0998044648
 20
-115.3856488249
 10
334.3228643741
 20
-116.1501206557
 10
332.5596673609
 20
-116.8030648968
 10
330.8147395267
 20
-117.3428054495
 10
329.0925600762
 20
-117.7679568075
 10
327.3975498193
 20
-118.0774276136
 10
325.7340598232
 20
-118.2704234604
 10
324.1063602427
 20
-118.3464489305
 10
322.5186293593
 20
-118.3053088676
 10
320.9749428555
 20
-118.1471088777
 10
319.4792633523
 20
-117.8722550577
 10
318.0354302375
 20
-117.4814529536
 10
316.6471498102
 20
-116.9757057487
 10
315.3179857662
 20
-116.3563116889
 10
314.0513500505
 20
-115.6248607498
 10
312.8504940989
 20
-114.7832305555
 10
311.7185004914
 20
-113.8335815587
 10
310.6582750394
 20
-112.7783514946
 10
309.6725393263
 20
-111.6202491238
 10
308.7638237216
 20
-110.3622472784
 10
307.9344608852
 20
-109.007575231
 10
307.1865797797
 20
-107.5597104055
 10
306.5221002051
 20
-106.0223694501
 10
305.9427278709
 20
-104.3994986969
 10
305.4499500177
 20
-102.6952640319
 10
305.045031599
 20
-100.914040201
 10
304.7290120347
 20
-99.0603995803
 10
304.5027025425
 20
-97.1391004386
 10
304.3666840556
 20
-95.1550747234
 10
304.3213057314
 20
-93.1134154001
 10
304.3213057314
 20
-93.1134154001
  0
LWPOLYLINE
  5
CB
330
1F
100
AcDbEntity
  8
0
  6
Continuous
 62
     7
370
    25
100
AcDbPolyline
 90
       67
 70
   128
 43
0.0
 10
352.5632456534
 20
-37.1096015465
 10
353.9174225203
 20
-37.2116732463
 10
355.2423882693
 20
-37.4300719404
 10
356.5165817984
 20
-37.7635242877
 10
357.7358469533
 20
-38.210942636
 10
358.8962067443
 20
-38.7708675997
 10
359.993876319
 20
-39.4414728198
 10
361.0252753075
 20
-40.2205709216
 10
361.9870395006
 20
-41.105620649
 10
362.8760318235
 20
-42.0937351537
 10
363.6893525678
 20
-43.1816914115
 10
364.4243488505
 20
-44.3659407355
 10
365.0786232665
 20
-45.6426203502
 10
365.6500417085
 20
-47.0075659923
 10
366.1367403284
 20
-48.4563254928
 10
366.5371316164
 20
-49.9841732992
 10
366.8499095794
 20
-51.5861258897
 10
367.0740540007
 20
-53.2569580278
 10
367.2088337678
 20
-54.9912198063
 10
367.253809257
 20
-56.7832544239
 10
367.2088337678
 20
-58.6272166361
 10
367.0740540007
 20
-60.5170918214
 10
366.8499095794
 20
-62.4467155998
 10
366.5371316164
 20
-64.4097939396
 10
366.1367403284
 20
-66.3999236872
 10
365.6500417085
 20
-68.4106134532
 10
365.0786232665
 20
-70.4353047853
 10
364.4243488505
 20
-72.4673935614
 10
363.6893525678
 20
-74.5002515302
 10
362.8760318235
 20
-76.5272479315
 10
361.9870395006
 20
-78.5417711244
 10
361.0252753075
 20
-80.537250153
 10
359.993876319
 20
-82.5071761794
 10
358.8962067443
 20
-84.4451237144
 10
357.7358469533
 20
-86.344771576
 10
356.5165817984
 20
-88.1999235076
 10
355.2423882693
 20
-90.0045283893
 10
353.9174225203
 20
-91.752699975
 10
352.5460063144
 20
-93.4387360924
 10
351.1326129261
 20
-95.0571372421
 10
349.6818525508
 20
-96.6026245359
 10
348.1984572675
 20
-98.0701569156
 10
346.6872656031
 20
-99.4549475955
 10
345.1532067509
 20
-100.7524796763
 10
343.6012844918
 20
-101.9585208779
 10
342.0365608738
 20
-103.0691373448
 10
340.4641397
 20
-104.0807064768
 10
338.8891498815
 20
-104.9899287457
 10
337.3167287077
 20
-105.7938384574
 10
335.7520050897
 20
-106.4898134255
 10
334.2000828306
 20
-107.0755835244
 10
332.6660239784
 20
-107.5492380937
 10
331.154832314
 20
-107.9092321706
 10
329.6714370307
 20
-108.1543915294
 10
328.2206766554
 20
-108.2839165112
 10
326.8072832671
 20
-108.2973846323
 10
325.4358670612
 20
-108.1947519627
 10
324.1109013122
 20
-107.9763532686
 10
322.8367077831
 20
-107.6429009213
 10
321.6174426282
 20
-107.195482573
 10
320.4570828372
 20
-106.6355576093
 10
319.3594132625
 20
-105.9649523892
 10
318.328014274
 20
-105.1858542874
 10
317.3662500809
 20
-104.30080456
 10
316.477257758
 20
-103.3126900553
 10
315.6639370137
 20
-102.2247337974
 10
315.2976912068
 20
-101.6624296536
  0
ENDSEC
  0
SECTION
  2
OBJECTS
  0
DICTIONARY
  5
C
330
0
100
AcDbDictionary
281
     1
  3
ACAD_GROUP
350
D
  3
ACAD_LAYOUT
350
1A
  3
ACAD_MLINESTYLE
350
17
  3
ACAD_PLOTSETTINGS
350
19
  3
ACAD_PLOTSTYLENAME
350
E
  3
ACAD_SCALELIST
350
47
  0
DICTIONARY
  5
D
102
{ACAD_REACTORS
330
C
102
}
330
C
100
AcDbDictionary
281
     1
  0
DICTIONARY
  5
1A
102
{ACAD_REACTORS
330
C
102
}
330
C
100
AcDbDictionary
281
     1
  3
Layout1
350
1E
  3
Layout2
350
26
  3
Model
350
22
  0
DICTIONARY
  5
17
102
{ACAD_REACTORS
330
C
102
}
330
C
100
AcDbDictionary
281
     1
  3
Standard
350
18
  0
DICTIONARY
  5
19
102
{ACAD_REACTORS
330
C
102
}
330
C
100
AcDbDictionary
281
     1
  0
ACDBDICTIONARYWDFLT
  5
E
102
{ACAD_REACTORS
330
C
102
}
330
C
100
AcDbDictionary
281
     1
  3
Normal
350
F
100
AcDbDictionaryWithDefault
340
F
  0
DICTIONARY
  5
47
102
{ACAD_REACTORS
330
C
102
}
330
C
100
AcDbDictionary
281
     1
  3
A0
350
48
  3
A1
350
49
  3
A2
350
4A
  3
A3
350
4B
  3
A4
350
4C
  3
A5
350
4D
  3
A6
350
4E
  3
A7
350
4F
  3
A8
350
50
  3
A9
350
51
  3
B0
350
52
  3
B1
350
53
  3
B2
350
54
  3
B3
350
55
  3
B4
350
56
  3
B5
350
57
  3
B6
350
58
  3
B7
350
59
  3
B8
350
5A
  3
B9
350
5B
  3
C0
350
5C
  3
C1
350
5D
  3
C2
350
5E
  3
C3
350
5F
  3
C4
350
60
  3
C5
350
61
  3
C6
350
62
  3
C7
350
63
  3
C8
350
64
  3
C9
350
65
  3
D0
350
66
  3
D1
350
67
  3
D2
350
68
  0
LAYOUT
  5
1E
102
{ACAD_REACTORS
330
1A
102
}
330
1A
100
AcDbPlotSettings
  1

  2
none_device
  4

  6

 40
0.0
 41
0.0
 42
0.0
 43
0.0
 44
0.0
 45
0.0
 46
0.0
 47
0.0
 48
0.0
 49
0.0
140
0.0
141
0.0
142
1.0
143
1.0
 70
   688
 72
     1
 73
     0
 74
     5
  7

 75
    16
147
1.0
148
0.0
149
0.0
100
AcDbLayout
  1
Layout1
 70
     1
 71
     1
 10
0.0
 20
0.0
 11
420.0
 21
297.0
 12
0.0
 22
0.0
 32
0.0
 14
1.0000000000E+20
 24
1.0000000000E+20
 34
1.0000000000E+20
 15
-1.0000000000E+20
 25
-1.0000000000E+20
 35
-1.0000000000E+20
146
0.0
 13
0.0
 23
0.0
 33
0.0
 16
1.0
 26
0.0
 36
0.0
 17
0.0
 27
1.0
 37
0.0
 76
     0
330
1B
  0
LAYOUT
  5
26
102
{ACAD_REACTORS
330
1A
102
}
330
1A
100
AcDbPlotSettings
  1

  2
none_device
  4

  6

 40
0.0
 41
0.0
 42
0.0
 43
0.0
 44
0.0
 45
0.0
 46
0.0
 47
0.0
 48
0.0
 49
0.0
140
0.0
141
0.0
142
1.0
143
1.0
 70
   688
 72
     1
 73
     0
 74
     5
  7

 75
    16
147
1.0
148
0.0
149
0.0
100
AcDbLayout
  1
Layout2
 70
     1
 71
     2
 10
0.0
 20
0.0
 11
0.0
 21
0.0
 12
0.0
 22
0.0
 32
0.0
 14
0.0
 24
0.0
 34
0.0
 15
0.0
 25
0.0
 35
0.0
146
0.0
 13
0.0
 23
0.0
 33
0.0
 16
1.0
 26
0.0
 36
0.0
 17
0.0
 27
1.0
 37
0.0
 76
     0
330
23
  0
LAYOUT
  5
22
102
{ACAD_REACTORS
330
1A
102
}
330
1A
100
AcDbPlotSettings
  1

  2
none_device
  4
Letter_(8.50_x_11.00_Inches)
  6

 40
6.35
 41
6.35
 42
6.35000508
 43
6.35000508
 44
215.9
 45
279.4
 46
0.0
 47
0.0
 48
0.0
 49
0.0
140
0.0
141
0.0
142
1.0
143
1.0
 70
  1712
 72
     1
 73
     0
 74
     0
  7

 75
     0
147
1.0
148
0.0
149
0.0
100
AcDbLayout
  1
Model
 70
     1
 71
     0
 10
0.0
 20
0.0
 11
279.4
 21
215.9
 12
0.0
 22
0.0
 32
0.0
 14
0.0
 24
0.0
 34
0.0
 15
279.4
 25
215.9
 35
0.0
146
0.0
 13
0.0
 23
0.0
 33
0.0
 16
1.0
 26
0.0
 36
0.0
 17
0.0
 27
1.0
 37
0.0
 76
     0
330
1F
331
29
  0
MLINESTYLE
  5
18
102
{ACAD_REACTORS
330
17
102
}
330
17
100
AcDbMlineStyle
  2
Standard
 70
     0
  3

 62
   256
 51
90.0
 52
90.0
 71
     2
 49
0.5
 62
   256
  6
BYLAYER
 49
-0.5
 62
   256
  6
BYLAYER
  0
ACDBPLACEHOLDER
  5
F
102
{ACAD_REACTORS
330
E
102
}
330
E
  0
SCALE
  5
48
102
{ACAD_REACTORS
330
47
102
}
330
47
100
AcDbScale
 70
     0
300
1:1
140
1.0
141
1.0
290
     1
  0
SCALE
  5
49
102
{ACAD_REACTORS
330
47
102
}
330
47
100
AcDbScale
 70
     0
300
1:2
140
1.0
141
2.0
290
     0
  0
SCALE
  5
4A
102
{ACAD_REACTORS
330
47
102
}
330
47
100
AcDbScale
 70
     0
300
1:4
140
1.0
141
4.0
290
     0
  0
SCALE
  5
4B
102
{ACAD_REACTORS
330
47
102
}
330
47
100
AcDbScale
 70
     0
300
1:5
140
1.0
141
5.0
290
     0
  0
SCALE
  5
4C
102
{ACAD_REACTORS
330
47
102
}
330
47
100
AcDbScale
 70
     0
300
1:8
140
1.0
141
8.0
290
     0
  0
SCALE
  5
4D
102
{ACAD_REACTORS
330
47
102
}
330
47
100
AcDbScale
 70
     0
300
1:10
140
1.0
141
10.0
290
     0
  0
SCALE
  5
4E
102
{ACAD_REACTORS
330
47
102
}
330
47
100
AcDbScale
 70
     0
300
1:16
140
1.0
141
16.0
290
     0
  0
SCALE
  5
4F
102
{ACAD_REACTORS
330
47
102
}
330
47
100
AcDbScale
 70
     0
300
1:20
140
1.0
141
20.0
290
     0
  0
SCALE
  5
50
102
{ACAD_REACTORS
330
47
102
}
330
47
100
AcDbScale
 70
     0
300
1:30
140
1.0
141
30.0
290
     0
  0
SCALE
  5
51
102
{ACAD_REACTORS
330
47
102
}
330
47
100
AcDbScale
 70
     0
300
1:40
140
1.0
141
40.0
290
     0
  0
SCALE
  5
52
102
{ACAD_REACTORS
330
47
102
}
330
47
100
AcDbScale
 70
     0
300
1:50
140
1.0
141
50.0
290
     0
  0
SCALE
  5
53
102
{ACAD_REACTORS
330
47
102
}
330
47
100
AcDbScale
 70
     0
300
1:100
140
1.0
141
100.0
290
     0
  0
SCALE
  5
54
102
{ACAD_REACTORS
330
47
102
}
330
47
100
AcDbScale
 70
     0
300
2:1
140
2.0
141
1.0
290
     0
  0
SCALE
  5
55
102
{ACAD_REACTORS
330
47
102
}
330
47
100
AcDbScale
 70
     0
300
4:1
140
4.0
141
1.0
290
     0
  0
SCALE
  5
56
102
{ACAD_REACTORS
330
47
102
}
330
47
100
AcDbScale
 70
     0
300
8:1
140
8.0
141
1.0
290
     0
  0
SCALE
  5
57
102
{ACAD_REACTORS
330
47
102
}
330
47
100
AcDbScale
 70
     0
300
10:1
140
10.0
141
1.0
290
     0
  0
SCALE
  5
58
102
{ACAD_REACTORS
330
47
102
}
330
47
100
AcDbScale
 70
     0
300
100:1
140
100.0
141
1.0
290
     0
  0
SCALE
  5
59
102
{ACAD_REACTORS
330
47
102
}
330
47
100
AcDbScale
 70
     0
300
1/128" = 1'-0"
140
0.0078125
141
12.0
290
     0
  0
SCALE
  5
5A
102
{ACAD_REACTORS
330
47
102
}
330
47
100
AcDbScale
 70
     0
300
1/64" = 1'-0"
140
0.015625
141
12.0
290
     0
  0
SCALE
  5
5B
102
{ACAD_REACTORS
330
47
102
}
330
47
100
AcDbScale
 70
     0
300
1/32" = 1'-0"
140
0.03125
141
12.0
290
     0
  0
SCALE
  5
5C
102
{ACAD_REACTORS
330
47
102
}
330
47
100
AcDbScale
 70
     0
300
1/16" = 1'-0"
140
0.0625
141
12.0
290
     0
  0
SCALE
  5
5D
102
{ACAD_REACTORS
330
47
102
}
330
47
100
AcDbScale
 70
     0
300
3/32" = 1'-0"
140
0.09375
141
12.0
290
     0
  0
SCALE
  5
5E
102
{ACAD_REACTORS
330
47
102
}
330
47
100
AcDbScale
 70
     0
300
1/8" = 1'-0"
140
0.125
141
12.0
290
     0
  0
SCALE
  5
5F
102
{ACAD_REACTORS
330
47
102
}
330
47
100
AcDbScale
 70
     0
300
3/16" = 1'-0"
140
0.1875
141
12.0
290
     0
  0
SCALE
  5
60
102
{ACAD_REACTORS
330
47
102
}
330
47
100
AcDbScale
 70
     0
300
1/4" = 1'-0"
140
0.25
141
12.0
290
     0
  0
SCALE
  5
61
102
{ACAD_REACTORS
330
47
102
}
330
47
100
AcDbScale
 70
     0
300
3/8" = 1'-0"
140
0.375
141
12.0
290
     0
  0
SCALE
  5
62
102
{ACAD_REACTORS
330
47
102
}
330
47
100
AcDbScale
 70
     0
300
1/2" = 1'-0"
140
0.5
141
12.0
290
     0
  0
SCALE
  5
63
102
{ACAD_REACTORS
330
47
102
}
330
47
100
AcDbScale
 70
     0
300
3/4" = 1'-0"
140
0.75
141
12.0
290
     0
  0
SCALE
  5
64
102
{ACAD_REACTORS
330
47
102
}
330
47
100
AcDbScale
 70
     0
300
1" = 1'-0"
140
1.0
141
12.0
290
     0
  0
SCALE
  5
65
102
{ACAD_REACTORS
330
47
102
}
330
47
100
AcDbScale
 70
     0
300
1-1/2" = 1'-0"
140
1.5
141
12.0
290
     0
  0
SCALE
  5
66
102
{ACAD_REACTORS
330
47
102
}
330
47
100
AcDbScale
 70
     0
300
3" = 1'-0"
140
3.0
141
12.0
290
     0
  0
SCALE
  5
67
102
{ACAD_REACTORS
330
47
102
}
330
47
100
AcDbScale
 70
     0
300
6" = 1'-0"
140
6.0
141
12.0
290
     0
  0
SCALE
  5
68
102
{ACAD_REACTORS
330
47
102
}
330
47
100
AcDbScale
 70
     0
300
1'-0" = 1'-0"
140
12.0
141
12.0
290
     0
  0
ENDSEC
  0
EOF
